Home > World > Español > Attaque 77 > >
No Me Arrepiento (Guaymas 31: 02) Guitar Tablature
attaque 77


song: no me arrpiento 



(en vivo guaymas 31 de ago 02)



tabbed by Rudy Guzman


email: [email protected]



"aguante guaymas, nos vemos ahi abajo ahora"

repeat 2 times
gt1
e----------------------------------------------------|
B----------------------------------------------------|
G----------------------------------------------------| 
D----------------------------------------------------|
A------------------5-----5--5-6------------5---------|
E-3-5-6--5-3--6-8-----6---------8--6-5--8-----6-5--3-|

repeat 2 times
gt2
E|-----------------------------------------------------------------|
B|-----------------------------------------------------------------|
G|-----------------------------------------------------------------|
D|-5-5-5-5-5-5-5-5--8-8-8-8-8-8-8-8--3-3-3-3-3-3-3-3--5-5-5-5-5-5~-|
A|-5-5-5-5-5-5-5-5--8-8-8-8-8-8-8-8--3-3-3-3-3-3-3-3--5-5-5-5-5-5~-|
e|-3-3-3-3-3-3-3-3--6-6-6-6-6-6-6-6--1-1-1-1-1-1-1-1--3-3-3-3-3-3~-|


verse
   2 times
  No me arrepiento de este amor, aunque me cueste el corazón......
E|------------------------------------------------------------------|
B|------------------------------------------------------------------|
G|------------------3-3-3-3-3-3-3-3---------------------------------|
D|-5-5-5-5-5-5-5-5--3-3-3-3-3-3-3-3--3-3-3-3-3-3-3-3--5-5-5-5-5-5-5-|
A|-5-5-5-5-5-5-5-5--1-1-1-1-1-1-1-1--3-3-3-3-3-3-3-3--5-5-5-5-5-5-5-|
e|-3-3-3-3-3-3-3-3-------------------1-1-1-1-1-1-1-1--3-3-3-3-3-3-3-|

  Después de cerrar la puerta, nuestra cama espera abierta.........
E|--------------------------------------------------------------------------------------|
B|--------------------------------------------------------------------------------------|
G|--3-3-3-3-3-3-3-3-------------------8-8-8-8-8-8-8-8--3-3-3-3-3-3-3-3------------------|
D|--3-3-3-3-3-3-3-3--3-3-3-3-3-3-3-3--8-8-8-8-8-8-8-8--3-3-3-3-3-3-3-3--3-3-3-3-3-3-3-3-|
A|--1-1-1-1-1-1-1-1--3-3-3-3-3-3-3-3--6-6-6-6-6-6-6-6--1-1-1-1-1-1-1-1--3-3-3-3-3-3-3-3-|
e|-------------------1-1-1-1-1-1-1-1------------------------------------1-1-1-1-1-1-1-1-|

E|-----------------------------------------------------------------------|
B|-----------------------------------------------------------------------|
G|--3-3-3-3-3-3-3-3-------------------8-8-8-8-8-8-8----------7-7-7-7-7-7-|
D|--3-3-3-3-3-3-3-3--3-3-3-3-3-3-3-3--8-8-8-8-8-8-8--8/10-8--7-7-7-7-7-7-|
A|--1-1-1-1-1-1-1-1--3-3-3-3-3-3-3-3--6-6-6-6-6-6-6--6/8--6--5-5-5-5-5-5-|
e|-------------------1-1-1-1-1-1-1-1-------------------------------------|

  no me arrepiento de este amor, aunque me cueste el corazón.....
   2 times
E|------------------------------------------------------------------|
B|------------------------------------------------------------------|
G|------------------3-3-3-3-3-3-3-3---------------------------------|
D|-5-5-5-5-5-5-5-5--3-3-3-3-3-3-3-3--3-3-3-3-3-3-3-3--5-5-5-5-5-5-5-|
A|-5-5-5-5-5-5-5-5--1-1-1-1-1-1-1-1--3-3-3-3-3-3-3-3--5-5-5-5-5-5-5-|
e|-3-3-3-3-3-3-3-3-------------------1-1-1-1-1-1-1-1--3-3-3-3-3-3-3-|

   2 veces
gt1
e----------------------------------------------------|
B----------------------------------------------------|
G----------------------------------------------------| 
D----------------------------------------------------|
A------------------5-----5--5-6------------5---------|
E-3-5-6--5-3--6-8-----6---------8--6-5--8-----6-5--3-|
   2 veces
gt2
E|-----------------------------------------------------------------|
B|-----------------------------------------------------------------|
G|-----------------------------------------------------------------|
D|-5-5-5-5-5-5-5-5--8-8-8-8-8-8-8-8--3-3-3-3-3-3-3-3--5-5-5-5-5-5~-|
A|-5-5-5-5-5-5-5-5--8-8-8-8-8-8-8-8--3-3-3-3-3-3-3-3--5-5-5-5-5-5~-|
e|-3-3-3-3-3-3-3-3--6-6-6-6-6-6-6-6--1-1-1-1-1-1-1-1--3-3-3-3-3-3~-|


Después de cerrar la puerta, nuestra cama espera abierta.......
E|--------------------------------------------------------------------------------------|
B|--------------------------------------------------------------------------------------|
G|--3-3-3-3-3-3-3-3-------------------8-8-8-8-8-8-8-8--3-3-3-3-3-3-3-3------------------|
D|--3-3-3-3-3-3-3-3--3-3-3-3-3-3-3-3--8-8-8-8-8-8-8-8--3-3-3-3-3-3-3-3--3-3-3-3-3-3-3-3-|
A|--1-1-1-1-1-1-1-1--3-3-3-3-3-3-3-3--6-6-6-6-6-6-6-6--1-1-1-1-1-1-1-1--3-3-3-3-3-3-3-3-|
e|-------------------1-1-1-1-1-1-1-1------------------------------------1-1-1-1-1-1-1-1-|

E|-----------------------------------------------------------------------|
B|-----------------------------------------------------------------------|
G|--3-3-3-3-3-3-3-3-------------------8-8-8-8-8-8-8----------7-7-7-7-7-7-|
D|--3-3-3-3-3-3-3-3--3-3-3-3-3-3-3-3--8-8-8-8-8-8-8--8/10-8--7-7-7-7-7-7-|
A|--1-1-1-1-1-1-1-1--3-3-3-3-3-3-3-3--6-6-6-6-6-6-6--6/8--6--5-5-5-5-5-5-|
e|-------------------1-1-1-1-1-1-1-1-------------------------------------|


  no me arrepiento de este amor, aunque me cueste el corazón.....
  2 times
E|------------------------------------------------------------------|
B|------------------------------------------------------------------|
G|------------------3-3-3-3-3-3-3-3---------------------------------|
D|-5-5-5-5-5-5-5-5--3-3-3-3-3-3-3-3--3-3-3-3-3-3-3-3--5-5-5-5-5-5-5-|
A|-5-5-5-5-5-5-5-5--1-1-1-1-1-1-1-1--3-3-3-3-3-3-3-3--5-5-5-5-5-5-5-|
e|-3-3-3-3-3-3-3-3-------------------1-1-1-1-1-1-1-1--3-3-3-3-3-3-3-|

   "tu puedes guaymas!!!"
   repeat
pm.................................................................
E|------------------------------------------------------------------|
B|------------------------------------------------------------------|
G|------------------3-3-3-3-3-3-3-3---------------------------------|
D|-5-5-5-5-5-5-5-5--3-3-3-3-3-3-3-3--3-3-3-3-3-3-3-3--5-5-5-5-5-5-5-|
A|-5-5-5-5-5-5-5-5--1-1-1-1-1-1-1-1--3-3-3-3-3-3-3-3--5-5-5-5-5-5-5-|
e|-3-3-3-3-3-3-3-3-------------------1-1-1-1-1-1-1-1--3-3-3-3-3-3-3-|

solo
   repetir                                                -----------------------
E|---------------|---------------------------------------/-----------------------------|
B|---------------|--------------------------------------/------------------------------|
G|-0--2-3--2-3--5|-0-(0)-----------------------3----5bf/---(5)--(5)--(5)--5-5-5-5p3----|
D|---------------|--------5~~~~~--5-3-(3)--3-5---5-----------------------------------5-|
A|---------------|---------------------------------------------------------------------|
e|---------------|---------------------------------------------------------------------|

   uhhhh uhhhhhh uhhhhh uhhhhh......
  ---------repite----------------------
E|--------6--------------6------------|---------|
B|-8p6-------8p6-8p6--------8p6-8p6---|-8b~~~---|
G|------7-------------7-------------7-|---------|
D|------------------------------------|---------|
A|------------------------------------|---------|
e|------------------------------------|---------|

  uhhhh uhhhhhhh uhhhhhhh uhhhhhhh......
E|-----15-15-----15-15------15-15-----15-15-----15-15----15-15-----15-15-----15-15-|
B|-----15-15-----15-15------15-15-----15-15-----15-15----15-15-----15-15-----15-15-|
G|-17b-------17b--------17b-------17b--------17b------17b-------17b------17b-------|
D|---------------------------------------------------------------------------------|
A|---------------------------------------------------------------------------------|
e|---------------------------------------------------------------------------------|

E|------------------|
B|------------------|
G|-17p15------------|
D|-------17-17~~~~--|
A|------------------|
e|------------------|

  hey! hey! hey! hey! hey!......
pm.................................................................
E|------------------------------------------------------------------|
B|------------------------------------------------------------------|
G|------------------3-3-3-3-3-3-3-3---------------------------------|
D|-5-5-5-5-5-5-5-5--3-3-3-3-3-3-3-3--3-3-3-3-3-3-3-3--5-5-5-5-5-5-5-|
A|-5-5-5-5-5-5-5-5--1-1-1-1-1-1-1-1--3-3-3-3-3-3-3-3--5-5-5-5-5-5-5-|
e|-3-3-3-3-3-3-3-3-------------------1-1-1-1-1-1-1-1--3-3-3-3-3-3-3-|


E|---------------------------------------------------------|
B|---------------------------------------------------------|
G|---------------------------------------------------------|
D|-5-5-5-5-5-5-5-5-555555555555555555555555555555555555555-|
A|-5-5-5-5-5-5-5-5-555555555555555555555555555555555555555-|
e|-3-3-3-3-3-3-3-3-333333333333333333333333333333333333333-|

          "muchisimas gracias!!!!..... hasta siempreeeeee!!!" 
E|---------------------------------------------------------------|
B|---------------------------------------------------------------|
G|---------------------------------------------------------------|
D|---------------------------------------------------------------|
A|---------------------------------------------------------------|
e|-3-5-6-5-6--8-6-8--10-8-10--12-10-12-14-12-14-15-15-15-15-15---|



E|----------|
B|----------|
G|----------|
D|-5-----5--|
A|-5-----5--|
e|-3-----3--|
     "muchisimas gracias!!"

lo presencie todo!! buen concierto, va ser uno ke nunka podre olvidar eso es de seguro
inche klima mas sofocado ke la erga, 6 hrs sudando!, ni con la lluvia se hizo. aun asi me la pase bien y agarre como 7 kalendarios de la gira .
felicidades al ke tomo el video, te salieron chilas las tomas, deberias poner mas videos el de yo combati a la ley o beat on the brats.
Previous guitar tablature in Attaque 77 :: Next guitar tablature in Attaque 77