Home > World > Español > Attaque 77 > >
Amigo (solo Guaymas 31: 09) Guitar Tablature
attaque 77


song: amigo (solo)



(en vivo guaymas 31 de ago 02)



tabbed by Rudy Guzman


email: [email protected]

  solo
  slide down
e--------------------------|
B--------------------------|
G--------------------------| 
D--------------------------|
A-12/----------------------|
E--------------------------|

e:--------------------------------------------------------------------------------------|
B:--------------------------------------------------------------------------------------|
G:-9--9--7~~---6--7--9--9--7~~---6--7--6--7--9--11--14--14--14--11-11-11--9--7--6--4-(4)|
D:--------------------------------------------------------------------------------------|
A:-7--7--5~~---4--5--7--7--5~~---4--5--4--5--7--9---12--12--12--9--9--9---7--5--4--2-(2)|
E:--------------------------------------------------------------------------------------|

e:--------------------------------------------------------------------------------------|
B:--------------------------------------------------------------------------------------|
G:-9--9--7~~---6--7--9--9--7~~---6--7--6--7--9--11--14--14--14--11-11-11--9--7--6--4-(4)|
D:--------------------------------------------------------------------------------------|
A:-7--7--5~~---4--5--7--7--5~~---4--5--4--5--7--9---12--12--12--9--9--9---7--5--4--2-(2)|
E:--------------------------------------------------------------------------------------|
Previous guitar tablature in Attaque 77 :: Next guitar tablature in Attaque 77