Home > World > Italiano > Punkreas >
Elettrosmogriff1: Guitar Tablature
Riff1:
Questo riff va bene sia per l ‘ intro che per il bridge. È utilizzato per tutte e due le chitarre.
E------------------------------------------------------------------------------------
B------------------------------------------------------------------------------------
G—--7---7-------------------7---7------------7---7----------------5---5----------
D---7---7-6-7-6-7-----------7---7-6-77-------7---7-6-7-6-7--------5---5---5-—5-------
A---5---5-6-7-6-7-----------5---5-6-77-------5---5-6-7-6-7--------3---3---5---5------
E---------4-5-4-5-----------------4-55-------------4-5-6-7----------------3---3---Riff2:
E-----------------8------------------------------------------------------------------
B---9-10----12------10-9-------------------(x  2)------------------------------------
G-----------------------10-9---------------------------------------------------------
D------------------------------------------------------------------------------------
A------------------------------------------------------------------------------------
E------------------------------------------------------------------------------------
Strane frequenze casalinghe …..
Riff3:
usato da tutte e due le chitarre.
E------------------------------------------------------------------------------------
B------------------------------------------------------------------------------------
G—--7---7---7—7-7-7-7---7---7---7-7-7-7-7---7---7---7-7-7-7-7--—5--—5------------
D---7---7---7-7-7-7-7---7---7---7-7-7-7-7---7---7---7-7-7-7-7---5---5—--5—5-------
A---5---5---5-5-5-5-5---5---5---5-5-5-5-5---5---5---5-5-5-5-5---3---3---5-5----
E-----------------------------------------------------------------------3-3----------
D’improvviso mi giro…..
Riff4:
usato da una chitarra, mentre l’altra fa il riff1.
E------------------------------------------------------------------------------------
B------------------------------------------------------------------------------------
G----7—7------------5---5-5----------------------------------------------------------
D----7-7---5---5----5---5-5-7---7---------------------------------------------------
A----5-5---5---5----3---3-3-7---7---------------------------------------------------
E----------3---3------------5---5------------------------------------------------
Spiegate i vecchi testamenti…….
Assolo:
Per l’assolo potete utilizzare una scala frigia o la solita cara pentatonica in tonalità di sol.
Rit.:
E------------------------------------------------------------------------------------
B------------------------------------------------------------------------------------
G----7---7---------------------3-3-3---5-5-5—55--------------------------------------
D----7---7-6-7-6-7----3-3-3-3-3-3—5-5-5—55-----------------------------------------
A----5---5-6-7-6-7----3-3-3-1-1-1---3-3-3---33-----(X 5)-----------------------------
E-----------4-5-4-5----1-1-1----------------------------------------------------------------
Nel vostro infero brucerete solo voi……………

Questo è tutto per me. Vi consiglio di ascoltarla mentre la suonate almeno per le prime volte. Dovrebbe essere tutto giusto, ma se trova te qualche errore o una forma migliore , Fatemelo sapere!!! Scrivete a: [email protected]
Previous guitar tablature in Punkreas :: Next guitar tablature in Punkreas