Home > Rock & Pop > 3 Doors Down >
Duck and Run Guitar Tablature
Tabbed by Stephen... questions? comments? Email me at [email protected]mail.com

Standard Tuning

e|----------------------------------------------            
B|----------------------------------------------
G|-9--9-9-9-9-9-12-12-11-14-5--5-5-5-5-4-4-5-5-7
D|----------------------------------------------
A|-7--7-7-7-7-7-10-10--9-12-3--3-3-3-3-2-2-3-3-5
E|----------------------------------------------

e|----------------------------------------------            
B|----------------------------------------------
G|-9--9-9-9-9-9-12-12-11-14-5--5-5-5-5-4-4-5-5-7
D|----------------------------------------------
A|-7--7-7-7-7-7-10-10--9-12-3--3-3-3-3-2-2-3-3-5
E|----------------------------------------------

e|----------------------------------------------            
B|----------------------------------------------
G|-9--9-9-9-9-9-12-12-11-14-5--5-5-5-5-4-4-5-5-7
D|----------------------------------------------
A|-7--7-7-7-7-7-10-10--9-12-3--3-3-3-3-2-2-3-3-5
E|----------------------------------------------

e|----------------------------------------------            
B|----------------------------------------------
G|-9--9-9-9-9-9-12-12-11-14-5--5-5-5-5-4-4-5-5-7
D|----------------------------------------------
A|-7--7-7-7-7-7-10-10--9-12-3--3-3-3-3-2-2-3-3-5
E|----------------------------------------------
Previous guitar tablature in 3 Doors Down :: Next guitar tablature in 3 Doors Down