Home > Rock & Pop > U2 >
A Day Without Me Guitar Tablature
Member Name: the edge
Real Name: Alan Kells
E-mail: [email protected]mail.com

Intro - (guitar)  Riff 1

	"Well somebody cry, somebody cry, somebody cry!"

e-----------------------------------------------------------------|--
B--12--12--12--12--12--12--12--12--12--12--12---X--X--X--------|--With nice delay...
G--11--11--9---11---11--9--11--11--11--11--11---X--X--X--------|--Do this bit a
D--9---9---9---11---11--9---9---9---9---9---9----9--9--X--------|--few more times.
A-----------------------------------------------------------------|--
E-----------------------------------------------------------------|--

  "Well I can't see why or what for!"   Riff 2

e---------------------------------------------------------------|--
B----------------------5--7--5-------------7--9--7-------------|--
G--------2---5--4----------------2--5--4-----------2--5--4----|--    x2
D--------------------------------------------------------------|--
A--------------------------------------------------------------|--
E--------------------------------------------------------------|--


  Part just before lyrics through first line ("Boy, stupid Boy!")  Riff 3

          D             /                G
e--2--2--2--2--2--2--2-3-2--
B--3--3--3--3--3--3--3-3-3--
G--2--2--2--2--2--2--2---2--
D----------------------------
A----------------------------
E----------------------------

	Haven't figured out the part after that yet...

	'Chorus'

          C               Em
	"Till you don't know...

                     D/G
	"Electric Co.

          C               Em
	"Till you don't know...

                     D/G
	"Electric Co.

	 Riff 2 here

	'Bridge'

	B or Bm

	'Solo'

	D
	               v Do this a bunch of times with variations in speed, it's too much to 
tab!  Lazy...
e--10-9-12-10-9-12-10-9---------------------------|-
B--------------------------14-12-11-9-8-9-8-------|-
G---------------------------------------------9-7--|-
D--------------------------------------------------|-  Repeat once more
A--------------------------------------------------|-
E--------------------------------------------------|-

e--------------------------------------------------|-
B--------------------------------------------------|-
G--2--4-5-7---2--4-5-7----------------------------|-
D--------------------------------------------------|-
A--------------------------------------------------|-
E--------------------------------------------------|-

  'Outro'

          D             /                G
e--2--2--0--2--0--2--3--3--3--3--7-5---|-
B--3--3--3--3--3--3--3--3--3--3--7-5---|-
G--2--2--2--2--2--2--2--0--0--0---------|-  Repeat about 8 times or so...
D----------------------------------------|-
A----------------------------------------|-
E----------------------------------------|-

  Sorry it's not entirely complete, but it should be plenty to work from if you listen to 
the disc a thousand times.

	Note that the main chords (D, G, C, Em) can all be played in their barre form for more 
control over the distortion.  Also note that in Riff 2, G is substituted for Dsus2 if 
played in barre chord form.

     D      Dsus2     C        Em
e--x-----x------x-----x
B--7-----8------5----5
G--7-----7------5----4
D--7-----7------5----x
A--x-----x------x----x
E--x-----x------x----x

	Remember this stuff is not set in stone in any way, shape or form.  Experiment.  It's 
fun.  Just not with chemicals...
Previous guitar tablature in U2 :: Next guitar tablature in U2