Home > Rock & Pop > Smashing Pumpkins >
Age of Innocence Guitar Tablature
Song: Age of innocence
Band: Smashing pumpkins
Tuning: Eb Ab Db Gb Bb eb
Tabbed by: [email protected]

Verse
|-3-3-3-3-3-3-3-3-3-3-3-3-3-3-3-3--------|
|-3-3-3-3-3-3-3-3-3-3-3-3-3-3-3-3--------|
|-0-0-0-0-2-2-2-2-0-0-0-0-0-0-0-0--------|
|-2-2-2-2-2-2-2-2-2-2-2-2-2-2-2-2--------|
|-3-3-3-3-0-0-0-0-2-2-2-2-2-2-2-2--------|
|----------------------------------------|
Chorus
|----------------------------------------|
|----------------------------------------|
|-8-5/9-7--------------------------------|
|-8-5/9-7--------------------------------|
|-6-3/7-5--------------------------------|
|----------------------------------------|

Middle
|----------------------------------------|
|-------0---0----------------------------|
|---0--2---0-0---------------------------|
|--2--2---2---2--------------------------|
|-3------2-------------------------------|
|----------------------------------------|

Distorded part
|----------------------------------------|
|----------------------------------------|
|-5-5-5-5-14-14-14-14-7-7-7-7------------|
|-5-5-5-5-14-14-14-14-7-7-7-7------------|
|-3-3-3-3-12-12-12-12-5-5-5-5------------|
|----------------------------------------|
Previous guitar tablature in Smashing Pumpkins :: Next guitar tablature in Smashing Pumpkins