Home > Hip-Hop > Beastie Boys >
I Don't Know Guitar Tablature
Artist:beastie boys
Song:I don’t know
Album:hello nasty
Tabbed by: seb(mi[email protected])
Half step down tuning:Eb Ab Db Gb Bb eb

e|--------------------------------------------------------|
B|--------------------------------------------------------|
G|--4---5---5---4---4-5---5---5---5---4---4-5-------------|
D|5---5---3---3---3---------------------------------------|
A|----------------------7---7---6---6---6-----------------|
E|--------------------------------------------------------|
Repeat

42 seconds through the song it cuts to chords

      D          C

e|-3-3-3333--0-0-0000--0-0-0000--0-0---0000------------|
B|-2-2-2222--3-3-3333--3-3-3333--1-1---1111------------|
G|-3-3-3333--0-0-0000--0-0-0000--0-0---0000------------|
D|-0-0-0000--2-2-2222--0-0-0000--2-2---2222------------|
A|-0-0-0000--3-3-3333--2-2-2222--3-3---3333------------|
E|-x-x-xxxx--0-0-0000--3-3-3333--0-0---0000------------|
Repeat through rest of song

Lyrics

Whats pleasing to the eye, in the delusion of my sight is
 not what I find when I reach into the light, I have lost
 my mind I’m walking through time, Deluded as the next guy 
pretending and hoping to find that distant peace of mind.

I don’t know, where to go it’s not so simple as I try to 
wish, but then again what is? There is no other worthy 
quest, so on I go.

End.

It’s a simple song but a wicked riff.
Previous guitar tablature in Beastie Boys :: Next guitar tablature in Beastie Boys