Home > World > Español > Attaque 77 >
Beat On the Brat Guitar Tablature
beat on the brat


attaque 77


TRANSCRIBED BY RUDY GUZMAN


[email protected]

e:--------------------------------------|
B:-1/2-2--x-x--2-x-x--2-2--x--2---------|
G:-1/2-2--x-x--2-x-x--2-2--x--2---------|
D:-1/2-2--x-x--2-x-x--2-2--x--2---------|
A:-------------------------------3b/----|
E:--------------------------------------|


e:--------------------------------------|
B:-1/2-2--x-x--2-x-x--2-2--x--2---------|
G:-1/2-2--x-x--2-x-x--2-2--x--2---------|
D:-1/2-2--x-x--2-x-x--2-2--x--2---------|
A:-------------------------------3b-3b--|
E:--------------------------------------|

e:--------------------------------------|
B:-1/2-2--x-x--2-x-x--2-2--x--2---------|
G:-1/2-2--x-x--2-x-x--2-2--x--2---------|
D:-1/2-2--x-x--2-x-x--2-2--x--2---------|
A:-------------------------------3b/----|
E:--------------------------------------|


e:--------------------------------------|
B:-1/2-2--x-x--2-x-x--2-2--x--2---------|
G:-1/2-2--x-x--2-x-x--2-2--x--2---------|
D:-1/2-2--x-x--2-x-x--2-2--x--2---------|
A:-------------------------------3b-0---|
E:--------------------------------------|

verse
e:-----------------------------------------------------------------|
B:-2-2--x--2--2--x--2-2-x--2-2--x--2-2--x--2--2--x--2-2-x--2-2--2--|
G:-2-2--x--2--2--x--2-2-x--2-2--x--2-2--x--2--2--x--2-2-x--2-2--2--|
D:-2-2--x--2--2--x--2-2-x--2-2--x--2-2--x--2--2--x--2-2-x--2-2--2--|
A:-0-0-----0--0-----0-0----0-0-----0-0-----0--0-----0-0----0-0--0--|
E:-----------------------------------------------------------------|

  oh  yeah   oh     yeah oh oh
e:-2--2--2-2-2-2-2------------------|
B:-3--3--3-3-3-3-3------------------|
G:-2--2--2-2-2-2-2---1--1-1-1-1-1-1-|
D:-0--0--0-0-0-0-0---2--2-2-2-2-2-2-|
A:-------------------2--2-2-2-2-2-2-|
E:-------------------0--0-0-0-0-0-0-|


e:--------------------------------------|
B:-1/2-2--x-x--2-x-x--2-2--x--2---------|
G:-1/2-2--x-x--2-x-x--2-2--x--2---------|
D:-1/2-2--x-x--2-x-x--2-2--x--2---------|
A:-------------------------------3b-0---|
E:--------------------------------------|

verse
e:-----------------------------------------------------------------|
B:-2-2--x--2--2--x--2-2-x--2-2--x--2-2--x--2--2--x--2-2-x--2-2--2--|
G:-2-2--x--2--2--x--2-2-x--2-2--x--2-2--x--2--2--x--2-2-x--2-2--2--|
D:-2-2--x--2--2--x--2-2-x--2-2--x--2-2--x--2--2--x--2-2-x--2-2--2--|
A:-0-0-----0--0-----0-0----0-0-----0-0-----0--0-----0-0----0-0--0--|
E:-----------------------------------------------------------------|

  oh  yeah   oh     yeah oh oh
e:-2--2--2-2-2-2-2------------------|
B:-3--3--3-3-3-3-3------------------|
G:-2--2--2-2-2-2-2---1--1-1-1-1-1-1-|
D:-0--0--0-0-0-0-0---2--2-2-2-2-2-2-|
A:-------------------2--2-2-2-2-2-2-|
E:-------------------0--0-0-0-0-0-0-|

e:--------------------------------------|
B:-1/2-2--x-x--2-x-x--2-2--x--2---------|
G:-1/2-2--x-x--2-x-x--2-2--x--2---------|
D:-1/2-2--x-x--2-x-x--2-2--x--2---------|
A:-------------------------------3b-0---|
E:--------------------------------------|

  oh  yeah   oh     yeah oh oh
e:-2--2--2-2-2-2-2------------------|
B:-3--3--3-3-3-3-3------------------|
G:-2--2--2-2-2-2-2---1--1-1-1-1-1-1-|
D:-0--0--0-0-0-0-0---2--2-2-2-2-2-2-|
A:-------------------2--2-2-2-2-2-2-|
E:-------------------0--0-0-0-0-0-0-|

e:--------------------------------------|
B:-1/2-2--x-x--2-x-x--2-2--x--2---------|
G:-1/2-2--x-x--2-x-x--2-2--x--2---------|
D:-1/2-2--x-x--2-x-x--2-2--x--2---------|
A:--------------------------------------|
E:--------------------------------9----|


:-3--3-3--3-3--3-3--------------------|
:-3--3-3--3-3--3-3--------------------|
:-0--0-0--0-0--0-0--1--1-1-1-1-1-1-1--|
:-0--0-0--0-0--0-0--2--2-2-2-2-2-2-2--|
:-2--2-2--2-2--2-2--2--2-2-2-2-2-2-2--|
:-3--3-3--3-3--3-3--0--0-0-0-0-0-0-0--|


:-3--3-3--3-3--3-3--------------------|
:-3--3-3--3-3--3-3--------------------|
:-0--0-0--0-0--0-0--1--1-1-1-1-1-1-1--|
:-0--0-0--0-0--0-0--2--2-2-2-2-2-2-2--|
:-2--2-2--2-2--2-2--2--2-2-2-2-2-2-2--|
:-3--3-3--3-3--3-3--0--0-0-0-0-0-0-0--|


what can you do....

    what can you do
:-3--3-3--3-3--3-3--------------------|
:-3--3-3--3-3--3-3--------------------|
:-0--0-0--0-0--0-0--1--1-1-1-1-1-1-1--|
:-0--0-0--0-0--0-0--2--2-2-2-2-2-2-2--|
:-2--2-2--2-2--2-2--2--2-2-2-2-2-2-2--|
:-3--3-3--3-3--3-3--0--0-0-0-0-0-0-0--|

  what can you do
e:-2--2--2-2-2-2-2------------------|
B:-3--3--3-3-3-3-3------------------|
G:-2--2--2-2-2-2-2---1--1-1-1-1-1-1-|
D:-0--0--0-0-0-0-0---2--2-2-2-2-2-2-|
A:-------------------2--2-2-2-2-2-2-|
E:-------------------0--0-0-0-0-0-0-|

  what can you do
e:-2--2--2-2-2-2-2------------------|
B:-3--3--3-3-3-3-3------------------|
G:-2--2--2-2-2-2-2---1--1-1-1-1-1-1-|
D:-0--0--0-0-0-0-0---2--2-2-2-2-2-2-|
A:-------------------2--2-2-2-2-2-2-|
E:-------------------0--0-0-0-0-0-0-|

  what can you do
e:-2--2--2-2-2-2-2------------------|
B:-3--3--3-3-3-3-3------------------|
G:-2--2--2-2-2-2-2---1--1-1-1-1-1-1-|
D:-0--0--0-0-0-0-0---2--2-2-2-2-2-2-|
A:-------------------2--2-2-2-2-2-2-|
E:-------------------0--0-0-0-0-0-0-|

  with a brat like that...
e:-2--2--2-2-2-2-2------------------|
B:-3--3--3-3-3-3-3------------------|
G:-2--2--2-2-2-2-2---1--1-1-1-1-1-1-|
D:-0--0--0-0-0-0-0---2--2-2-2-2-2-2-|
A:-------------------2--2-2-2-2-2-2-|
E:-------------------0--0-0-0-0-0-0-|

:-3--3-3--3-3--3-3--------------------|
:-3--3-3--3-3--3-3--------------------|
:-0--0-0--0-0--0-0--1--1-1-1-1-1-1-1--|
:-0--0-0--0-0--0-0--2--2-2-2-2-2-2-2--|
:-2--2-2--2-2--2-2--2--2-2-2-2-2-2-2--|
:-3--3-3--3-3--3-3--0--0-0-0-0-0-0-0--|

:-3--3-3--3-3--3-3--------------------|
:-3--3-3--3-3--3-3--------------------|
:-0--0-0--0-0--0-0--1--1-1-1-1-1-1-1--|
:-0--0-0--0-0--0-0--2--2-2-2-2-2-2-2--|
:-2--2-2--2-2--2-2--2--2-2-2-2-2-2-2--|
:-3--3-3--3-3--3-3--0--0-0-0-0-0-0-0--|


e:--------------------------------------|
B:-1/2-2--x-x--2-x-x--2-2--x--2---------|
G:-1/2-2--x-x--2-x-x--2-2--x--2---------|
D:-1/2-2--x-x--2-x-x--2-2--x--2---------|
A:-------------------------------3b/----|
E:--------------------------------------|


e:--------------------------------------|
B:-1/2-2--x-x--2-x-x--2-2--x--2---------|
G:-1/2-2--x-x--2-x-x--2-2--x--2---------|
D:-1/2-2--x-x--2-x-x--2-2--x--2---------|
A:-------------------------------3b-0---|
E:--------------------------------------|

verse
e:-----------------------------------------------------------------|
B:-2-2--x--2--2--x--2-2-x--2-2--x--2-2--x--2--2--x--2-2-x--2-2--2--|
G:-2-2--x--2--2--x--2-2-x--2-2--x--2-2--x--2--2--x--2-2-x--2-2--2--|
D:-2-2--x--2--2--x--2-2-x--2-2--x--2-2--x--2--2--x--2-2-x--2-2--2--|
A:-0-0-----0--0-----0-0----0-0-----0-0-----0--0-----0-0----0-0--0--|
E:-----------------------------------------------------------------|

  oh  yeah   oh     yeah oh oh
e:-2--2--2-2-2-2-2------------------|
B:-3--3--3-3-3-3-3------------------|
G:-2--2--2-2-2-2-2---1--1-1-1-1-1-1-|
D:-0--0--0-0-0-0-0---2--2-2-2-2-2-2-|
A:-------------------2--2-2-2-2-2-2-|
E:-------------------0--0-0-0-0-0-0-|


e:--------------------------------------|
B:-1/2-2--x-x--2-x-x--2-2--x--2---------|
G:-1/2-2--x-x--2-x-x--2-2--x--2---------|
D:-1/2-2--x-x--2-x-x--2-2--x--2---------|
A:-------------------------------3b-0---|
E:--------------------------------------|

verse
e:-----------------------------------------------------------------|
B:-2-2--x--2--2--x--2-2-x--2-2--x--2-2--x--2--2--x--2-2-x--2-2--2--|
G:-2-2--x--2--2--x--2-2-x--2-2--x--2-2--x--2--2--x--2-2-x--2-2--2--|
D:-2-2--x--2--2--x--2-2-x--2-2--x--2-2--x--2--2--x--2-2-x--2-2--2--|
A:-0-0-----0--0-----0-0----0-0-----0-0-----0--0-----0-0----0-0--0--|
E:-----------------------------------------------------------------|

  oh  yeah   oh     yeah oh oh
e:-2--2--2-2-2-2-2------------------|
B:-3--3--3-3-3-3-3------------------|
G:-2--2--2-2-2-2-2---1--1-1-1-1-1-1-|
D:-0--0--0-0-0-0-0---2--2-2-2-2-2-2-|
A:-------------------2--2-2-2-2-2-2-|
E:-------------------0--0-0-0-0-0-0-|

e:--------------------------------------|
B:-1/2-2--x-x--2-x-x--2-2--x--2---------|
G:-1/2-2--x-x--2-x-x--2-2--x--2---------|
D:-1/2-2--x-x--2-x-x--2-2--x--2---------|
A:-------------------------------3b-0---|
E:--------------------------------------|

  oh  yeah   oh     yeah oh oh
e:-2--2--2-2-2-2-2------------------|
B:-3--3--3-3-3-3-3------------------|
G:-2--2--2-2-2-2-2---1--1-1-1-1-1-1-|
D:-0--0--0-0-0-0-0---2--2-2-2-2-2-2-|
A:-------------------2--2-2-2-2-2-2-|
E:-------------------0--0-0-0-0-0-0-|

e:--------------------------------------|
B:-1/2-2--x-x--2-x-x--2-2--x--2---------|
G:-1/2-2--x-x--2-x-x--2-2--x--2---------|
D:-1/2-2--x-x--2-x-x--2-2--x--2---------|
A:--------------------------------------|
E:--------------------------------9----|


:-3--3-3--3-3--3-3--------------------|
:-3--3-3--3-3--3-3--------------------|
:-0--0-0--0-0--0-0--1--1-1-1-1-1-1-1--|
:-0--0-0--0-0--0-0--2--2-2-2-2-2-2-2--|
:-2--2-2--2-2--2-2--2--2-2-2-2-2-2-2--|
:-3--3-3--3-3--3-3--0--0-0-0-0-0-0-0--|


:-3--3-3--3-3--3-3--------------------|
:-3--3-3--3-3--3-3--------------------|
:-0--0-0--0-0--0-0--1--1-1-1-1-1-1-1--|
:-0--0-0--0-0--0-0--2--2-2-2-2-2-2-2--|
:-2--2-2--2-2--2-2--2--2-2-2-2-2-2-2--|
:-3--3-3--3-3--3-3--0--0-0-0-0-0-0-0--|


what can you do....


    what can you do
:-3--3-3--3-3--3-3--------------------|
:-3--3-3--3-3--3-3--------------------|
:-0--0-0--0-0--0-0--1--1-1-1-1-1-1-1--|
:-0--0-0--0-0--0-0--2--2-2-2-2-2-2-2--|
:-2--2-2--2-2--2-2--2--2-2-2-2-2-2-2--|
:-3--3-3--3-3--3-3--0--0-0-0-0-0-0-0--|

  what can you do
e:-2--2--2-2-2-2-2------------------|
B:-3--3--3-3-3-3-3------------------|
G:-2--2--2-2-2-2-2---1--1-1-1-1-1-1-|
D:-0--0--0-0-0-0-0---2--2-2-2-2-2-2-|
A:-------------------2--2-2-2-2-2-2-|
E:-------------------0--0-0-0-0-0-0-|

  what can you do
e:-2--2--2-2-2-2-2------------------|
B:-3--3--3-3-3-3-3------------------|
G:-2--2--2-2-2-2-2---1--1-1-1-1-1-1-|
D:-0--0--0-0-0-0-0---2--2-2-2-2-2-2-|
A:-------------------2--2-2-2-2-2-2-|
E:-------------------0--0-0-0-0-0-0-|

  what can you do
e:-2--2--2-2-2-2-2------------------|
B:-3--3--3-3-3-3-3------------------|
G:-2--2--2-2-2-2-2---1--1-1-1-1-1-1-|
D:-0--0--0-0-0-0-0---2--2-2-2-2-2-2-|
A:-------------------2--2-2-2-2-2-2-|
E:-------------------0--0-0-0-0-0-0-|

  with a brat like that...
e:-2--2--2-2-2-2-2------------------|
B:-3--3--3-3-3-3-3------------------|
G:-2--2--2-2-2-2-2---1--1-1-1-1-1-1-|
D:-0--0--0-0-0-0-0---2--2-2-2-2-2-2-|
A:-------------------2--2-2-2-2-2-2-|
E:-------------------0--0-0-0-0-0-0-|

:-3--3-3--3-3--3-3--------------------|
:-3--3-3--3-3--3-3--------------------|
:-0--0-0--0-0--0-0--1--1-1-1-1-1-1-1--|
:-0--0-0--0-0--0-0--2--2-2-2-2-2-2-2--|
:-2--2-2--2-2--2-2--2--2-2-2-2-2-2-2--|
:-3--3-3--3-3--3-3--0--0-0-0-0-0-0-0--|

:-3--3-3--3-3--3-3--------------------|
:-3--3-3--3-3--3-3--------------------|
:-0--0-0--0-0--0-0--1--1-1-1-1-1-1-1--|
:-0--0-0--0-0--0-0--2--2-2-2-2-2-2-2--|
:-2--2-2--2-2--2-2--2--2-2-2-2-2-2-2--|
:-3--3-3--3-3--3-3--0--0-0-0-0-0-0-0--|



e:-----------5-5---------------5-5----------|
B:-----------5-5---------------5-5----------|
G:------------------------------------------|
D:------------------------------------------|
A:-3b-3b--0-------0--3--3b--0-------3--3b---|
E:------------------------------------------|

e:-----------5-5---------------5-5----------|
B:-----------5-5---------------5-5----------|
G:------------------------------------------|
D:------------------------------------------|
A:-3b-3b--0-------0--3--3b--0-------3--3b---|
E:------------------------------------------|

e:-----------5-5---------------5-5----------|
B:-----------5-5---------------5-5----------|
G:------------------------------------------|
D:------------------------------------------|
A:-3b-3b--0-------0--3--3b--0-------3--3b---|
E:------------------------------------------|

e:-----------5-5---------------5-5----------|
B:-----------5-5---------------5-5----------|
G:------------------------------------------|
D:------------------------------------------|
A:-3b-3b--0-------0--3--3b--0-------3--3b---|
E:------------------------------------------|

e:-----------5-5---------------5-5----------|
B:-----------5-5---------------5-5----------|
G:------------------------------------------|
D:------------------------------------------|
A:-3b-3b--0-------0--3--3b--0-------3--3b---|
E:------------------------------------------|

e:-----------5-5---------------5-5----------|
B:-----------5-5---------------5-5----------|
G:------------------------------------------|
D:------------------------------------------|
A:-3b-3b--0-------0--3--3b--0-------3--3b---|
E:------------------------------------------|

repeat till fades out
Previous guitar tablature in Attaque 77 :: Next guitar tablature in Attaque 77