Home > World > Español > Asesino >
Rey de La Selva Guitar Tablature
 Band: Asesino
 Song: Rey de la Selva
 Transcribed by: F. Mendoza ([email protected])
 Tuning: ADGCFAD (low to high) 7 string
 Key:  ^ = pinch hamonic  h = hammer-on
       / = slide          p = pull-off
       x = muted string   b = bend
       > = fast pick      * = palm mute
       ~ = vibrate

 *you figure out what's palm muted*
 
  *note* song is probably in G tuning so open mutes might be wrong
 |------------------------------------|------
 |------------------------------------|------
 |-f.mendoza--------------------------|------
 |------------------------------------|------
 |------------------------------------|--5---
 |-2-2-2--2-2-2--2-2-2--2-2-2--2-2-2--|--5---
 |-0-0-0--0-0-0--0-0-0--0-0-0--0-0-0--|--3---


 |-------------------------------  ---------
 |-------------------------------  ---------
 |-f.mendoza---------------------  ---------
 |-------------------------------or---------
 |---5-------7-------5-------8---  -7/87---
 |---5-------7-------5-------8---  -7/87---
 |-0-3--0-0--5--0-0--3--0-0--6---  -5/65---


                  "soy el pinche rey"
 |---------------|-----------------
 |---------------|-----------------
 |-f.mendoza-----|-----------------
 |---------------|-----------------
 |-2-2-2--2-2-2--|-----------------
 |-2-2-2--2-2-2--|-----------------
 |-0-0-0--0-0-0--|-6>-5>-3>-0>-3>--



 |---------------------------------------
 |-f.mendoza-----------------------------
 |---------------------------------------
 |-3>----6>-------3>----6>-5>-6>-5>-4>---
 |----5>----4>-------5>------------------
 |---------------------------------------
 |---------------------------------------
Previous guitar tablature in Asesino :: Next guitar tablature in Asesino