Home > World > Español > Asesino >
Cyko Maton Guitar Tablature
 Band: Asesino
 Song: Cyko Maton
 Transcribed by: F. Mendoza ([email protected])
 Tuning: ADGCFAD (low to high) 7 string
 Key:  ^ = pinch hamonic  h = hammer-on
       / = slide          p = pull-off
       x = muted string   b = bend
       > = fast pick      * = palm mute
       ~ = vibrate

 
 *note* you figure out what's palm muted

  Intro
 |------------------|---------------
 |-f.mendoza--------|---------------
 |------------------|---------------
 |------------------|---------------
 |------------------|---------------
 |------------------|-x-x-x-x-x-x---
 |--3-4-4--3-4-4----|-x-x-x-x-x-x---


  "pero algo le falto..."
 |-----------------------
 |-f.mendoza-------------
 |-----------------------
 |-----------------------
 |-4-5-7-8-7-6-4-4>--4---
 |-2-3-5-6-5-4-2-2>--2---
 |-----------------------


  "cyko   maton.."
 |----------------
 |-f.mendoza------
 |----------------
 |----------------
 |-5-5-6--5-5-6---
 |-5-5-6--5-5-6---
 |-3-3-4--3-3-4---

 outro
 |-----------------------
 |-f.mendoza-------------
 |-----------------------
 |-----------------------
 |-5-5-6--5-5-6---2-2-2--
 |-5-5-6--5-5-6---2-2-2--
 |-3-3-4--3-3-4---0-0-0--
Previous guitar tablature in Asesino :: Next guitar tablature in Asesino