Home > World > Español > Asesino >
Corrido Del Asesino Guitar Tablature
 Band: Asesino
 Song: Corrido Del Asesino
 Transcribed by: F. Mendoza ([email protected])
 Tuning: ADGCFAD (low to high) 7 string
 Key:  ^ = pinch hamonic  h = hammer-on
       / = slide          p = pull-off
       x = muted string   b = bend
       > = fast pick      * = palm mute
       ~ = vibrate

 
 *note* you figure out what's palm muted
 
 
  Intro
 |-------------------------------------------
 |-f.mendoza---------------------------------
 |----------------5-------------------7------
 |-----------5~---4--------------5~---6------
 |-2-2-2-2--------3----2-2-2-2--------5------
 |-2-2-2-2---3~---2----2-2-2-2---3~---4------
 |-0-0-0-0-------------0-0-0-0---------------

  
 |-------------------------
 |-f.mendoza---------------
 |-------------------------
 |-5-------5------5/66----
 |----2-2-----2------------
 |-3--2-2--3--2---3/43----
 |----0-0-----0------------


 |--/15-------15----15/1615-
 |---------------------------
 |---------------------------
 |-f.mendoza-----------------
 |---------------------------
 |------2-2-----2------------
 |------0-0-----0------------


 |-------------------------------
 |-f.mendoza---------------------  
 |-------------------------------
 |-5-----------------------------
 |-5-----8----------------------
 |-3-----8---7h10p7p0--6h9p6p0--
 |-------6----------------------


 |-------------------------
 |-f.mendoza---------------
 |-------------------------
 |-------------------------
 |-------------------------
 |-/3-------3-----3-4-3----
 |-----0-0-----0-----------
Previous guitar tablature in Asesino :: Next guitar tablature in Asesino