Home > World > Español > Asesino >
Carnicero Guitar Tablature
 Band: Asesino
 Song: Carnicero
 Transcribed by: F. Mendoza ([email protected])
 Tuning: ADGCFAD (low to high) 7 string
 Key:  ^ = pinch hamonic  h = hammer-on
       / = slide          p = pull-off
       x = muted string   b = bend
       > = fast pick      * = palm mute
       ~ = vibrate

 
 *note* you figure out what's palm muted


 |--------------------------------
 |-f.mendoza----------------------
 |--------------------------------
 |--------------------------------
 |-----------------------6-4-2-4--
 |-----------------------6-4-2-4--
 |-2--2-0-2--2-0-2--2-0--4-2-0-2--


 |-----------------------------------------------------------------
 |-----------------------------------------------------------------
 |-----------------------------------------------------------------
 |-f.mendoza-------------------------------------------------------
 |-----------------------------------------------------------------
 |--0--2-3-2-3--4--0--1-2-1-2-1--3--0--2-3-2-3--4--0--1-2-1-2---4^-
 |-----------------------------------------------------------------


  "Car nice  ro!"
 |----------------
 |-f.mendoza------
 |----------------
 |----------------
 |-----5>-4>--7>--
 |-3>-------------
 |----------------



 |----------------------
 |-f.mendoza------------
 |----------------------
 |----------------------
 |-4>-3>-2>--6>-4>-2>---
 |-4>-3>-2>--6>-4--2>---
 |-2>-1>-0>--4>-2>-0>---


 |--------------------------------
 |--------------------------------
 |-f.mendoza----------------------
 |--------------------------------
 |-----5>-4>--7>-------5>-4>-2>---
 |-3>--------------3>-------------
 |--------------------------------

 |------------------------------
 |------------------------------
 |------------------------------
 |-2-2-2-2-2-2-2--2-2-2-2-2-2~--
 |-2-2-2-2-2-2-2--2-2-2-2-2-2~--
 |-0-0-0-0-0-0-0--0-0-0-0-0-0~--
 |------------------------------


 |----------------------
 |-f.mendoza------------
 |----------------------
 |-3h5-5-5h4-4-4h3-3----
 |----------------------
 |----------------------
 |----------------------


 |----------------------
 |-f.mendoza------------
 |----------------------
 |-3/5-5-54-4-43-3----
 |-3/5-5-54-4-43-3----
 |-1/3-3-32-2-21-1----
 |----------------------
Previous guitar tablature in Asesino :: Next guitar tablature in Asesino