Home > World > Español > Asesino >
Asesino Guitar Tablature
Band: Asesino
 Song: Asesino
 Transcribed by: F. Mendoza ([email protected])
 Tuning: ADGCFAD (low to high) 7 string
 Key:  ^ = pinch hamonic  h = hammer-on
       / = slide          p = pull-off
       x = muted string   b = bend
       > = fast pick      * = palm mute
       ~ = vibrate

 *note* you figure out what's palm muted

 Intro
 |------------|--------------
 |------------|--------------
 |-f.mendoza--|--------------
 |------------|--------------
 |-----4-3-4--|-------6>-----
 |-2>---------|-2>-----------
 |------------|--------------
   *            *
 
 Verse
 |-----------------------------
 |-----------------------------
 |-f.mendoza-------------------
 |----------------------5>4>---
 |--6/7-7-7-7--5-5-5-5---------
 |--6/7-7-7-7--5-5-5-5---------
 |--4/5-5-5-5--3-3-3-3---------

   1:16
 |-------------------------------------
 |-f.mendoza---------------------------
 |-------------------------------------
 |--------------4>---------------7>----
 |-------------------------------------
 |-------------------------------------
 |-3-2-3-2-3-2------3-2-3-2-3-2--------


 |-----------------------------------
 |-----------------------------------
 |-----------------------------------
 |-------------4>---------------7>---
 |-5-4-5-4-5-------5-4-5-4-5---------
 |-5-4-5-4-5-------5-4-5-4-5---------
 |-3-2-3-2-3-0-----3-2-3-2-3-0-------

   1:34
 |---------------
 |---------------
 |---------------
 |---------------
 |---------------
 |---------------
 |-3-2-3-2-3-0---
Previous guitar tablature in Asesino :: Next guitar tablature in Asesino