Home > World > Español > Asesino >
Amor Marrano Guitar Tablature
 Band: Asesino
 Song: Amor Marrano
 Transcribed by: F. Mendoza ([email protected])
 Tuning: ADGCFAD (low to high) 7 string
 Key:  ^ = pinch hamonic  h = hammer-on
       / = slide          p = pull-off
       x = muted string   b = bend
       > = fast pick      * = palm mute
       ~ = vibrate

 *you figure out what's palm muted*

 |--------------------------------
 |--------------------------------
 |-f.mendoza----------------------
 |--------------------------------
 |-5-5-5-5-5-5--4--5-5-5--4-5-----
 |-5-5-5-5-5-5--4--5-5-5--4-5-----
 |-3-3-3-3-3-3--2--3-3-3--2-3-----

  
 |------------------------------------
 |------------------------------------
 |------------------------------------
 |-f.mendoza--------------------------
 |------------------------------------
 |-0>-6-6-6-0-0-0-3-3-3-0-0-5-5-5-----
 |-----------------------^tricky------

  "yo tengo idea..."
 |---------------------------------------------------------------
 |---------------------------------------------------------------
 |-f.mendoza-----------------------------------------------------
 |---------------------------------------------------------------
 |-----5>-4>-7>-----5>-4>-7>-6>-4>-----5>-4>-7>-----5>-4>-7>-6>--
 |-2>------------4>-----------------3>-----------5>--------------
 |---------------------------------------------------------------


                         AMOR MARRANO!
 |-----------------|--------------------
 |-----------------|--------------------
 |-f.mendoza-------|--------------------
 |-----------------|--------------------
 |----4-----5-4/7--|----4-----5-4/7-5---
 |----4-----5-4/7--|----4-----5-4/7-5---
 |-0--2--0--3-2/5--|-0--2--0--3-2/5-3---
Next guitar tablature in Asesino