Home > World > Català > Kortatu >
Sarri Sarri Guitar Tablature
sarri sarri


kortatu


TRANSCRIBED BY RUDY GUZMAN


[email protected]


eb:-------------|
Bb:-7---6-------|
Gb:-7---6----4--|
Db:-7---6----4--| x3
Ab:-5---4----2--|
Eb:-------------|

eb:---------------------------|
Bb:---------------------------|
Gb:---------------------------|
Db:-2-2-2-2-2-2-2-2-2-2-2-2-2-|
Ab:-2-2-2-2-2-2-2-2-2-2-2-2-2-|
Eb:-0-0-0-0-0-0-0-0-0-0-0-0-0-|

eb:-9--9--9--9--9---5-5-5-5-5-5--7-7-7-7-7-7-7--9--9--9--9--9--|
Bb:-10-10-10-10-10--7-7-7-7-7-7--9-9-9-9-9-9-9--10-10-10-10-10-|
Gb:-9--9--9--9--9---7-7-7-7-7-7--9-9-9-9-9-9-9--9--9--9--9--9--|
Db:------------------------------------------------------------| x 2
Ab:------------------------------------------------------------|
Eb:------------------------------------------------------------|

verse
eb:-9--9--9--9--9---5-5-5-5-5-5--7-7-7-7-7-7-7--9--9--9--9--9--|
Bb:-10-10-10-10-10--7-7-7-7-7-7--9-9-9-9-9-9-9--10-10-10-10-10-|
Gb:-9--9--9--9--9---7-7-7-7-7-7--9-9-9-9-9-9-9--9--9--9--9--9--|
Db:------------------------------------------------------------| x 2
Ab:------------------------------------------------------------|
Eb:------------------------------------------------------------|

   sarri sarri sarri sarri sarri....
eb:-9--9--9--9--9---7-7-7-7-7-7--5-5-5-5-5-5-5--9--9--9--9--9--|
Bb:-10-10-10-10-10--9-9-9-9-9-9--7-7-7-7-7-7-7--10-10-10-10-10-|
Gb:-9--9--9--9--9---9-9-9-9-9-9--7-7-7-7-7-7-7--9--9--9--9--9--|
Db:------------------------------------------------------------|
Ab:------------------------------------------------------------|
Eb:------------------------------------------------------------|


verse
eb:-9--9--9--9--9---5-5-5-5-5-5--7-7-7-7-7-7-7--9--9--9--9--9--|
Bb:-10-10-10-10-10--7-7-7-7-7-7--9-9-9-9-9-9-9--10-10-10-10-10-|
Gb:-9--9--9--9--9---7-7-7-7-7-7--9-9-9-9-9-9-9--9--9--9--9--9--|
Db:------------------------------------------------------------| x 2
Ab:------------------------------------------------------------|
Eb:------------------------------------------------------------|

   sarri sarri sarri sarri sarri....
eb:-9--9--9--9--9---7-7-7-7-7-7--5-5-5-5-5-5-5--9--9--9--9--9--|
Bb:-10-10-10-10-10--9-9-9-9-9-9--7-7-7-7-7-7-7--10-10-10-10-10-|
Gb:-9--9--9--9--9---9-9-9-9-9-9--7-7-7-7-7-7-7--9--9--9--9--9--|
Db:------------------------------------------------------------|
Ab:------------------------------------------------------------|
Eb:------------------------------------------------------------|

eb:-------------|
Bb:-7---6-------|
Gb:-7---6----4--|
Db:-7---6----4--| x3
Ab:-5---4----2--|
Eb:-------------|

eb:---------------------------|
Bb:---------------------------|
Gb:---------------------------|
Db:-2-2-2-2-2-2-2-2-2-2-2-2-2-|
Ab:-2-2-2-2-2-2-2-2-2-2-2-2-2-|
Eb:-0-0-0-0-0-0-0-0-0-0-0-0-0-|

verse
eb:-9--9--9--9--9---5-5-5-5-5-5--7-7-7-7-7-7-7--9--9--9--9--9--|
Bb:-10-10-10-10-10--7-7-7-7-7-7--9-9-9-9-9-9-9--10-10-10-10-10-|
Gb:-9--9--9--9--9---7-7-7-7-7-7--9-9-9-9-9-9-9--9--9--9--9--9--|
Db:------------------------------------------------------------| x 4
Ab:------------------------------------------------------------|
Eb:------------------------------------------------------------|

   sarri sarri sarri sarri sarri....
eb:-9--9--9--9--9---7-7-7-7-7-7--5-5-5-5-5-5-5--9--9--9--9--9--|
Bb:-10-10-10-10-10--9-9-9-9-9-9--7-7-7-7-7-7-7--10-10-10-10-10-|
Gb:-9--9--9--9--9---9-9-9-9-9-9--7-7-7-7-7-7-7--9--9--9--9--9--|
Db:------------------------------------------------------------|
Ab:------------------------------------------------------------|
Eb:------------------------------------------------------------|

   sarri sarri sarri sarri sarri....
eb:-9--9--9--9--9---7-7-7-7-7-7--5-5-5-5-5-5-5--9--9--9--9--9--|
Bb:-10-10-10-10-10--9-9-9-9-9-9--7-7-7-7-7-7-7--10-10-10-10-10-|
Gb:-9--9--9--9--9---9-9-9-9-9-9--7-7-7-7-7-7-7--9--9--9--9--9--|
Db:------------------------------------------------------------|
Ab:------------------------------------------------------------|
Eb:------------------------------------------------------------|


eb:------------------------------------------------------------|
Bb:------------------------------------------------------------|
Gb:-------------------------------------9--9--9-----9--9--9-9--|
Db:-11-11-12-11-11-11-12--11-11-11-12--11-11-11-12-11-11-11-11-|
Ab:------------------------------------------------------------|
Eb:------------------------------------------------------------|

:--------------------------------------------|
:----------------------------------------9---|
:---------------------------9-9-9----9-9---9-|
:-9-9-11-9-9-9-11-9-9-9-11--9-9-9-11-9-------|
:--------------------------------------------|
:--------------------------------------------|


eb:--------------------------------------------------------------------|
Bb:--------------------------------------------------------------------|
Gb:------------------------------7-7--2------2h4p2---2---------2-2-2-2-|
Db:-7-7-9-7-7-7-9--7-7-7-9-7-7-9-7-7--2--2h4-------4---4-2-----2-2-2-2-|
Ab:-----------------------------------0--------------------4-0---------|
Eb:--------------------------------------------------------------------|


eb:------------------------------------------------------------|
Bb:------------------------------------------------------------|
Gb:-9--9-----9--9--9------9--9--9-------9--9--9-----9--9--9-9--|
Db:-11-11-12-11-11-11-12--11-11-11-12--11-11-11-12-11-11-11-11-|
Ab:------------------------------------------------------------|
Eb:------------------------------------------------------------|

:--------------------------------------------|
:----------------------------------------9---|
:---------------------------9-9-9----9-9---9-|
:-9-9-11-9-9-9-11-9-9-9-11--9-9-9-11-9-------|
:--------------------------------------------|
:--------------------------------------------|


eb:--------------------------------------------------------------------|
Bb:--------------------------------------------------------------------|
Gb:------------------------------7-7--2------2h4p2---2---------2-2-2-2-|
Db:-7-7-9-7-7-7-9--7-7-7-9-7-7-9-7-7--2--2h4-------4---4-2-----2-2-2-2-|
Ab:-----------------------------------0--------------------4-0---------|
Eb:--------------------------------------------------------------------|

eb:---------------------------------|------------------------------------------------------|
Bb:---------------------------------|------------------------------------------------------|
Gb:------9------9------9------9-----|-9----------------------------------------------------|
Db:-9h11---9h11---9h11---9h11---9h11|---11p9------------------------------10b----------9-11|
Ab:---------------------------------|--------10-12---12-10h12-10-12-10-12-----12-10-12-----|
Eb:---------------------------------|------------------------------------------------------|

:-----------------------------------------|
:------10-12-12b-10----10-10----10-10-10--|
:-9-11--------------11-------11-----------|
:-----------------------------------------|
:-----------------------------------------|
:-----------------------------------------|

   sarri sarri sarri sarri sarri....
eb:-9--9--9--9--9---7-7-7-7-7-7--5-5-5-5-5-5-5--9--9--9--9--9--|
Bb:-10-10-10-10-10--9-9-9-9-9-9--7-7-7-7-7-7-7--10-10-10-10-10-|
Gb:-9--9--9--9--9---9-9-9-9-9-9--7-7-7-7-7-7-7--9--9--9--9--9--|
Db:------------------------------------------------------------|
Ab:------------------------------------------------------------|
Eb:------------------------------------------------------------|

   sarri sarri sarri sarri sarri....
eb:-9--9--9--9--9---7-7-7-7-7-7--5-5-5-5-5-5-5--9--9--9--9--9--|
Bb:-10-10-10-10-10--9-9-9-9-9-9--7-7-7-7-7-7-7--10-10-10-10-10-|
Gb:-9--9--9--9--9---9-9-9-9-9-9--7-7-7-7-7-7-7--9--9--9--9--9--|
Db:------------------------------------------------------------|
Ab:------------------------------------------------------------|
Eb:------------------------------------------------------------|

eb:-------------|
Bb:-7---6-------|
Gb:-7---6----4--|
Db:-7---6----4--| x3
Ab:-5---4----2--|
Eb:-------------|

eb:---------------------------|
Bb:---------------------------|
Gb:---------------------------|
Db:-2-------------------------|
Ab:-2-------------------------|
Eb:-0-------------------------|

eb:-9--9--9--9--9---5-5-5-5-5-5--7-7-7-7-7-7-7--9--9--9--9--9--|
Bb:-10-10-10-10-10--7-7-7-7-7-7--9-9-9-9-9-9-9--10-10-10-10-10-|
Gb:-9--9--9--9--9---7-7-7-7-7-7--9-9-9-9-9-9-9--9--9--9--9--9--|
Db:------------------------------------------------------------| x 2
Ab:------------------------------------------------------------|
Eb:------------------------------------------------------------|

   sarri sarri sarri sarri sarri....
eb:-9--9--9--9--9---7-7-7-7-7-7--5-5-5-5-5-5-5--9--9--9--9--9--|
Bb:-10-10-10-10-10--9-9-9-9-9-9--7-7-7-7-7-7-7--10-10-10-10-10-|
Gb:-9--9--9--9--9---9-9-9-9-9-9--7-7-7-7-7-7-7--9--9--9--9--9--|
Db:------------------------------------------------------------|
Ab:------------------------------------------------------------|
Eb:------------------------------------------------------------|

   sarri sarri sarri sarri sarri....
eb:-9--9--9--9--9---7-7-7-7-7-7--5-5-5-5-5-5-5--9--9--9--9--9--|
Bb:-10-10-10-10-10--9-9-9-9-9-9--7-7-7-7-7-7-7--10-10-10-10-10-|
Gb:-9--9--9--9--9---9-9-9-9-9-9--7-7-7-7-7-7-7--9--9--9--9--9--|
Db:------------------------------------------------------------|
Ab:------------------------------------------------------------|
Eb:------------------------------------------------------------|
Previous guitar tablature in Kortatu