Home > World > Català > Kortatu >
Mierda de Ciudad Guitar Tablature
mierda de cuidad


kortatu


TRANSCRIBED BY RUDY GUZMAN


[email protected]


e:----------------------------------------------|
B:----------------------------------------------|
G:-7-7-7-7-7------------------------7-7-7-7-7-7-|
D:-7-7-7-7-7--5-5-5-5-5--7-7-7-7-7--7-7-7-7-7-7-|
A:-5-5-5-5-5--5-5-5-5-5--7-7-7-7-7--5-5-5-5-5-5-|
E:------------3-3-3-3-3--5-5-5-5-5--------------|

e:----------------------------------------------|
B:----------------------------------------------|
G:-7-7-7-7-7------------------------7-7-7-7-7-7-|
D:-7-7-7-7-7--5-5-5-5-5--7-7-7-7-7--7-7-7-7-7-7-|
A:-5-5-5-5-5--5-5-5-5-5--7-7-7-7-7--5-5-5-5-5-5-|
E:------------3-3-3-3-3--5-5-5-5-5--------------|

e:----------------------------------------------|
B:----------------------------------------------|
G:-7-7-7-7-7------------------------7-7-7-7-7-7-|
D:-7-7-7-7-7--5-5-5-5-5--7-7-7-7-7--7-7-7-7-7-7-|
A:-5-5-5-5-5--5-5-5-5-5--7-7-7-7-7--5-5-5-5-5-5-|
E:------------3-3-3-3-3--5-5-5-5-5--------------|

e:----------------------------------------------|
B:----------------------------------------------|
G:-7-7-7-7-7------------------------7-7-7-7-7-7-|
D:-7-7-7-7-7--5-5-5-5-5--7-7-7-7-7--7-7-7-7-7-7-|
A:-5-5-5-5-5--5-5-5-5-5--7-7-7-7-7--5-5-5-5-5-5-|
E:------------3-3-3-3-3--5-5-5-5-5--------------|


e:----------------------------------------------------------------|
B:----------------------------------------------------------------|
G:-7-7-7-7-7-7-7------------------------------------7-7-7-7-7-7-7-|
D:-7-7-7-7-7-7-7--5-5-5-5-5-5-5-5--7-7-7-7-7-7-7-7--7-7-7-7-7-7-7-|
A:-5-5-5-5-5-5-5--5-5-5-5-5-5-5-5--7-7-7-7-7-7-7-7--5-5-5-5-5-5-5-|
E:----------------3-3-3-3-3-3-3-3--5-5-5-5-5-5-5-5----------------|

verse
todo este sabado me lo voy a pasar...
e:----------------------------------------------------------------|
B:----------------------------------------------------------------|
G:-7-7-7-7-7-7-7------------------------------------7-7-7-7-7-7-7-|
D:-7-7-7-7-7-7-7--5-5-5-5-5-5-5-5--7-7-7-7-7-7-7-7--7-7-7-7-7-7-7-|
A:-5-5-5-5-5-5-5--5-5-5-5-5-5-5-5--7-7-7-7-7-7-7-7--5-5-5-5-5-5-5-|
E:----------------3-3-3-3-3-3-3-3--5-5-5-5-5-5-5-5----------------|


nota: cuando me pasaron esta kancion parece ke estaba rayada o algo asi y esta parte
va asi, esto es por si akaso ustedes tambien corrieron por la misma suerte"

              no kiero salir mas siempre lo mismo mierda de ciudad
e:----------------------------------------------------------------|
B:----------------------------------------------------------------|
G:-------------7------------------------------------7-7-7-7-7-7-7-|
D:-------------7--5-5-5-5-5-5-5-5--7-7-7-7-7-7-7-7--7-7-7-7-7-7-7-|
A:-------------5--5-5-5-5-5-5-5-5--7-7-7-7-7-7-7-7--5-5-5-5-5-5-5-|
E:----------------3-3-3-3-3-3-3-3--5-5-5-5-5-5-5-5----------------|

verse
e:----------------------------------------------------------------|
B:----------------------------------------------------------------|
G:-7-7-7-7-7-7-7------------------------------------7-7-7-7-7-7-7-|
D:-7-7-7-7-7-7-7--5-5-5-5-5-5-5-5--7-7-7-7-7-7-7-7--7-7-7-7-7-7-7-|
A:-5-5-5-5-5-5-5--5-5-5-5-5-5-5-5--7-7-7-7-7-7-7-7--5-5-5-5-5-5-5-|
E:----------------3-3-3-3-3-3-3-3--5-5-5-5-5-5-5-5----------------|

e:----------------------------------------------|
B:----------------------------------------------|
G:-7-7-7-7-7------------------------7-7-7-7-7-7-|
D:-7-7-7-7-7--5-5-5-5-5--7-7-7-7-7--7-7-7-7-7-7-|
A:-5-5-5-5-5--5-5-5-5-5--7-7-7-7-7--5-5-5-5-5-5-|
E:------------3-3-3-3-3--5-5-5-5-5--------------|

e:----------------------------------------------|
B:----------------------------------------------|
G:-7-7-7-7-7------------------------7-7-7-7-7-7-|
D:-7-7-7-7-7--5-5-5-5-5--7-7-7-7-7--7-7-7-7-7-7-|
A:-5-5-5-5-5--5-5-5-5-5--7-7-7-7-7--5-5-5-5-5-5-|
E:------------3-3-3-3-3--5-5-5-5-5--------------|

  kortatu
e:----------------------------------------------------------------|
B:----------------------------------------------------------------|
G:-7-7-7-7-7-7-7------------------------------------7-7-7-7-7-7-7-|
D:-7-7-7-7-7-7-7--5-5-5-5-5-5-5-5--7-7-7-7-7-7-7-7--7-7-7-7-7-7-7-|
A:-5-5-5-5-5-5-5--5-5-5-5-5-5-5-5--7-7-7-7-7-7-7-7--5-5-5-5-5-5-5-|
E:----------------3-3-3-3-3-3-3-3--5-5-5-5-5-5-5-5----------------|

verse
todo este sabado me lo voy a pasar...
e:----------------------------------------------------------------|
B:----------------------------------------------------------------|
G:-7-7-7-7-7-7-7------------------------------------7-7-7-7-7-7-7-|
D:-7-7-7-7-7-7-7--5-5-5-5-5-5-5-5--7-7-7-7-7-7-7-7--7-7-7-7-7-7-7-|
A:-5-5-5-5-5-5-5--5-5-5-5-5-5-5-5--7-7-7-7-7-7-7-7--5-5-5-5-5-5-5-|
E:----------------3-3-3-3-3-3-3-3--5-5-5-5-5-5-5-5----------------|


e:----------------------------------------------------------------|
B:----------------------------------------------------------------|
G:-7-7-7-7-7-7-7------------------------------------7-7-7-7-7-7-7-|
D:-7-7-7-7-7-7-7--5-5-5-5-5-5-5-5--7-7-7-7-7-7-7-7--7-7-7-7-7-7-7-|
A:-5-5-5-5-5-5-5--5-5-5-5-5-5-5-5--7-7-7-7-7-7-7-7--5-5-5-5-5-5-5-|
E:----------------3-3-3-3-3-3-3-3--5-5-5-5-5-5-5-5----------------|


e:--------8---|
B:--------7---|
G:-7--7---7---|
D:-7--7-------|
A:-5--5-------|
E:------------|
Previous guitar tablature in Kortatu :: Next guitar tablature in Kortatu