Home > World > Català > Kortatu >
El Ultimo Ska Guitar Tablature
el ultimo ska


kortatu


TRANSCRIBED BY RUDY GUZMAN


[email protected]


eb:-6-6--6-6--4-4--4-4---------------------|
Bb:-6-6--6-6--4-4--4-4--6-6--6-6--6-6--6-6-|
Gb:-6-6--6-6--4-4--4-4--6-6--6-6--6-6--6-6-|
Db:-8-8--8-8--6-6--6-6--6-6--6-6--6-6--6-6-|
Ab:-8-8--8-8--6-6--6-6--4-4--4-4--4-4--4-4-|
Eb:-6-6--6-6--4-4--4-4---------------------|


eb:-------------------------------------------------|
Bb:-6-6-6-6-6--11-11-11-11-11--9-9-9-9-9--4-4-4-4-4-|
Gb:-6-6-6-6-6--11-11-11-11-11--9-9-9-9-9--4-4-4-4-4-|
Db:-6-6-6-6-6--11-11-11-11-11--9-9-9-9-9--4-4-4-4-4-|
Ab:-4-4-4-4-4--9--9--9--9--9---7-7-7-7-7--2-2-2-2-2-|
Eb:-------------------------------------------------|

verse
eb:-------------------------------------------------|
Bb:-6-6-6-6-6--11-11-11-11-11--9-9-9-9-9--4-4-4-4-4-|
Gb:-6-6-6-6-6--11-11-11-11-11--9-9-9-9-9--4-4-4-4-4-|
Db:-6-6-6-6-6--11-11-11-11-11--9-9-9-9-9--4-4-4-4-4-|
Ab:-4-4-4-4-4--9--9--9--9--9---7-7-7-7-7--2-2-2-2-2-|
Eb:-------------------------------------------------|


eb:-6-6--6-6--4-4--4-4---------------------|
Bb:-6-6--6-6--4-4--4-4--6-6--6-6--6-6--6-6-|
Gb:-6-6--6-6--4-4--4-4--6-6--6-6--6-6--6-6-|
Db:-8-8--8-8--6-6--6-6--6-6--6-6--6-6--6-6-|
Ab:-8-8--8-8--6-6--6-6--4-4--4-4--4-4--4-4-|
Eb:-6-6--6-6--4-4--4-4---------------------|


eb:-------------------------------------------------|
Bb:-6-6-6-6-6--11-11-11-11-11--9-9-9-9-9--4-4-4-4-4-|
Gb:-6-6-6-6-6--11-11-11-11-11--9-9-9-9-9--4-4-4-4-4-|
Db:-6-6-6-6-6--11-11-11-11-11--9-9-9-9-9--4-4-4-4-4-|
Ab:-4-4-4-4-4--9--9--9--9--9---7-7-7-7-7--2-2-2-2-2-|
Eb:-------------------------------------------------|


verse
eb:-------------------------------------------------|
Bb:-6-6-6-6-6--11-11-11-11-11--9-9-9-9-9--4-4-4-4-4-|
Gb:-6-6-6-6-6--11-11-11-11-11--9-9-9-9-9--4-4-4-4-4-|
Db:-6-6-6-6-6--11-11-11-11-11--9-9-9-9-9--4-4-4-4-4-|
Ab:-4-4-4-4-4--9--9--9--9--9---7-7-7-7-7--2-2-2-2-2-|
Eb:-------------------------------------------------|



eb:-6-6--6-6--4-4--4-4---------------------|
Bb:-6-6--6-6--4-4--4-4--6-6--6-6--6-6--6-6-|
Gb:-6-6--6-6--4-4--4-4--6-6--6-6--6-6--6-6-|
Db:-8-8--8-8--6-6--6-6--6-6--6-6--6-6--6-6-|
Ab:-8-8--8-8--6-6--6-6--4-4--4-4--4-4--4-4-|
Eb:-6-6--6-6--4-4--4-4---------------------|


eb:-------------------------------------------------|
Bb:-6-6-6-6-6--11-11-11-11-11--9-9-9-9-9--4-4-4-4-4-|
Gb:-6-6-6-6-6--11-11-11-11-11--9-9-9-9-9--4-4-4-4-4-|
Db:-6-6-6-6-6--11-11-11-11-11--9-9-9-9-9--4-4-4-4-4-|
Ab:-4-4-4-4-4--9--9--9--9--9---7-7-7-7-7--2-2-2-2-2-|
Eb:-------------------------------------------------|

verse
eb:-------------------------------------------------|
Bb:-6-6-6-6-6--11-11-11-11-11--9-9-9-9-9--4-4-4-4-4-|
Gb:-6-6-6-6-6--11-11-11-11-11--9-9-9-9-9--4-4-4-4-4-|
Db:-6-6-6-6-6--11-11-11-11-11--9-9-9-9-9--4-4-4-4-4-|
Ab:-4-4-4-4-4--9--9--9--9--9---7-7-7-7-7--2-2-2-2-2-|
Eb:-------------------------------------------------|


eb:-6-6--6-6--4-4--4-4---------------------|
Bb:-6-6--6-6--4-4--4-4--6-6--6-6--6-6--6-6-|
Gb:-6-6--6-6--4-4--4-4--6-6--6-6--6-6--6-6-|
Db:-8-8--8-8--6-6--6-6--6-6--6-6--6-6--6-6-|
Ab:-8-8--8-8--6-6--6-6--4-4--4-4--4-4--4-4-|
Eb:-6-6--6-6--4-4--4-4---------------------|
Previous guitar tablature in Kortatu :: Next guitar tablature in Kortatu