Home > Rock & Pop > Kiss >
Within Guitar Tablature
		SONG: within
		ARTIST: KISS
		TRANSCRIBED: Ryan Freeman
		DATE:02/10/01
---------------------------------------------------------------------------------------------------------------------------------------------------------------------
		
		
this is the KISS Within tab, first do a drop D, then
tune every string down 1 1/2 step, and use lots of distortion 
I couldnt get the intro it was to hard to learn, 
so I learned the intro by ear.

	(riff a)
D|--------------------------------------------------------------|
A|--------------------------------------------------------------|
F|--------------------------------------------------------------|
C|--------------------------------------------------------------|
G|-0--2-2-2p0-0---0-2-2--2-7---0--2-2-2p0-0---0--2-2-0-6-7-6-2-0|
C|-0--2-2-2p0-0---0-2-2--2-7---0--2-2-2p0-0---0--2-2-0-6-7-6-2-0|

Then the bass guitar plays for a while then near the chorus, the guitar plays

D|----------
A|----------
F|----------
C|----------
G|----------
C|-12~-11-12

Chorus (riff b)
D|--------------------------------------------------------------|
A|--------------------------------------------------------------|
F|--------------------------------------------------------------|
C|--------------------------------------------------------------|
G|-0--2-2-2p0-0---0-2-2--2-7---0--2-2-2p0-0---0--2-2-0-6-7-6-2-0|
C|-0--2-2-2p0-0---0-2-2--2-7---0--2-2-2p0-0---0--2-2-0-6-7-6-2-0|

Bass plays after the chorus, then play:
(Riff b)
then solo:
D|------------------------------------------------------------------------------------------------------------------------------------------------------------------|
A|------------------------------------------------------------------------------------------------------------------------------------------------------------------|
F|------------------------------------------------------------------------------------------------------------------------------------------------------------------|
C|-2~---5-4-0-----2/42~----7/2~---5-4-0-----2/4/2~--4-5-777777-5-4-0-5/7/5-5-7-9-10.10.10.10.10.10-9-8-0-0-5-7-6-5-4-0-5/7/5-5-7-9-10.10.10.10.10.10-9-8-0-0-5-7-6-|
G|--------------2--------------------------2------------------------------------------------------------------------------------------------------------------------|
C|------------------------------------------------------------------------------------------------------------------------------------------------------------------|

then do:
riff a
riff b (repeat until the end of the song)

There you go, I know its probably not 100% correct, but its close to it anyway, hope ya enjoyed it
if there are any questions, email me at [email protected], or [email protected]
Previous guitar tablature in Kiss :: Next guitar tablature in Kiss