Home > Rock & Pop > Kiss >
We Are One Guitar Tablature
			SONG: We are on
			ARTIST: KISS
			TRASCRIBED: Ryan Freeman
			DATE: 02/10/13
---------------------------------------------------------------------------------------
Tune down 1/2 a step
/ slide up
 slide down
b bend
h hammer on
p pull off
*harmonics
x dead note
()remaining sound
. palm mute
' tremelo pick
^ Scratch the string
Intro x 2
e|-2--2--2-2--2-2--2--2--2--2-2--2-2--2--0--0--0-0--0-0--0--------------------|
B|-0--0--0-0--0-0--0--2--2--2-2--2-2--2--2--2--2-2--2-2--2--2--2--2-2--2-2--2-|
G|-4--4--4-4--4-4--4--4--4--4-4--4-4--4--1--1--1-1--1-1--1--3--3--3-3--3-3--3-|
D|-4--4--4-4--4-4--4--4--4--4-4--4-4--4--2--2--2-2--2-2--2--4--4--4-4--4-4--4-|
A|----------------------------------------------------------------------------|
E|----------------------------------------------------------------------------|

Verse x 3
e|-2--2--2-2--2-2--2--2--2--2-2--2-2--2--0--0--0-0--0-0--0--------------------|
B|-0--0--0-0--0-0--0--2--2--2-2--2-2--2--0--0--0-0--0-0--0--2--2--2-2--2-2--2-|
G|-4--4--4-4--4-4--4--4--4--4-4--4-4--4--1--1--1-1--1-1--1--3--3--3-3--3-3--3-|
D|-4--4--4-4--4-4--4--4--4--4-4--4-4--4--2--2--2-2--2-2--2--4--4--4-4--4-4--4-|
A|----------------------------------------------------------------------------|
E|----------------------------------------------------------------------------|

Chorus (distortion) x 3               
e|----------------------------------------------------------------------------|
B|----------------------------------------------------------------------------|
G|-4--------------------------------------------------------------------------|
D|-4------------------4------------------2------------------4-----------------|
A|-2------------------4------------------2------------------4-----------------|
E|--------------------2------------------0------------------2-----------------|

Verse x 3

Chorus x 3

Bridge
e|---------------------------------------------------------------------|
B|---------------------------------------------------------------------|
G|----4------2-----1--2--1----4------2----1--2--1------4---2---1-------|
D|----------------------------------------------------------------2----|
A|-------------------------------------------------------------------2-|
E|-0------0-----0-----------------0-----------------0------------------|

e|------------------------------------------------------------|
B|------------------------------------------------------------|
G|--------------------------4--2--1---------------------------|
D|-4------2----1--2--1---------------2-----2-----2------2/4---|
A|-----2--------------------------------0-----0-----0---------|
E|-----------------------0------------------------------------|

e|----------------------------------------------|
B|----------------------------------------------|
G|----4--2--1-----------------------------------|
D|-------------2-----4-------2----1--2--1-----2-|
A|----------------2------2----------------------|
E|-0--------------------------------------------|
 
Chorus x 4

Post Chorus x 1
e|-------------------------------------------|
B|-------------------------------------------|
G|-4-4---------------------------------------|
D|-4-4----------------4-4~----------------2~-|
A|-2-2----------------4-4~----------------2~-|
E|--------------------2-2~----------------0~-|

Finish Solo (guitar 1) can’t figure out guitar 2

e|--------------------------------------------------------------------------|
B|--------------------------------------------------------------------------|
G|---4----2----1h2----4----2----1h2p1-----4----2----1h2----4----2----1h2p1--|
D|-2---2----2-------2---2----2-----------2---2----2-------2---2----2--------|
A|--------------------------------------------------------------------------|
E|--------------------------------------------------------------------------|

e|-----------------------------------------------------------------|
B|-----------------------------------------------------------------|
G|---4----2----1-----------------------4---2---1-------------------|
D|-2---2----2----2---4---2---1h2p1---2---2---2---2---2---2---2-2h4-|
A|-----------------0---0---0-----------------------0---0---0---0h2-|
E|-----------------------------------------------------------------|

e|--------------------------------|
B|--------------------------------|
G|---4----2----1------------------|
D|-2---2----2----2---4---2---1h2p1|
A|-----------------0---0---0------|
E|--------------------------------|

well, thats it, any corrections are questions, please email me at the [email protected]
Previous guitar tablature in Kiss :: Next guitar tablature in Kiss