Home > World > Español > Almafuerte >
Se Vos Guitar Tablature
se vos (solo)


almafuerte


TRANSCRIBED BY RUDY GUZMAN


[email protected]

solo
e:--------------------------------------------------------17~~~-----17-19-19B~~~--20p17----|
B:------------15-15B~~~--15B~~~-------------17----17-20----------19---------------------20-|
G:-14B~~~~----------------------------17-19----19------------------------------------------|
D:---------16-------------------17/19------------------------------------------------------|
A:-----------------------------------------------------------------------------------------|
E:-----------------------------------------------------------------------------------------|

e:-20p17------------------------------------------------------------------------------21Bf-|
B:-------20p17-20p17-----------------------------------------------------------------------|
G:-------------------19-17h19p17----17----17~~~--19p17-19p17-------------------------------|
D:-------------------------------19----19--------------------19p17-19p17-------------------|
A:-----------------------------------------------------------------------19p17-------------|
E:-----------------------------------------------------------------------------20-20-------|

e:-(21Bf)~~~~--21B--21B~~~--------------------------------------------------------------|
B:--------------------------17B~~~~~~--17B--17B---17~~~--1717-15-1717-1818-17-15-17-15--|
G:--------------------------------------------------------------------------------------|
D:--------------------------------------------------------------------------------------|
A:--------------------------------------------------------------------------------------|
E:--------------------------------------------------------------------------------------|

:-----------------------------------------------------------------------------------------|
:-----------------------------------------------------------------------------------------|
:-17-14-15-17-14-15-14--------------------------------------------------------------------|
:----------------------17-14-15-17-14-15-14-----------------------------------------------|
:-------------------------------------------17-14-15-17-14-15-14--------------------------|
:----------------------------------------------------------------17-14-15-17-14-15-14--11-|


e:----------------------------------------------------------14-12-14-15-14-12--------------|
B:----------------------------------------------------------------------------15-12--------|
G:--------------------------------------12-14--17B---17~~~-------------------------14-12-12|
D:-----------------------------11-12-14----------------------------------------------------|
A:--------------------11-12-14-------------------------------------------------------------|
E:-12-14-12-11-12-14-----------------------------------------------------------------------|

e:-15-13-15-16-15-13-----------------16-14-16-17-16-14-16-14-------------------------------|
B:-------------------16-13-----------------------------------16-14-16-17-16-14-------------|
G:-------------------------15-13-13--------------------------------------------17-14-16-14-|
D:-----------------------------------------------------------------------------------------|
A:-----------------------------------------------------------------------------------------|
E:-----------------------------------------------------------------------------------------|

:-------------14-16-17-19--19-17-16-------------20Bf--20B--20-19-17--|
:----14-15-17-----------------------17-----19B-----------------------|
:-17-----------------------------------16----------------------------|
:--------------------------------------------------------------------|
:--------------------------------------------------------------------|
:--------------------------------------------------------------------|

se vos no mas...
e:---------------------------------------------------------------------------------------|
B:-17-20-18-----18-17-----17-15---12-13-12-----------------------------------------------|
G:-----------19--------17------------------14--17B---19B---19B--19p17----22~~~---14~~~~--|
D:--------------------------------------------------------------------19-----------------|
A:---------------------------------------------------------------------------------------|
E:---------------------------------------------------------------------------------------|

e:--------------------------------------------------------------------------------------|
B:--------------------------------------------------------------------------------------|
G:-9h12-11~~~-----------------------------------------------14~~~~---16-17-14----14~~---|
D:-------------12h15-14~~~---14Bf--12--10----12---14---14B--------------------17--------|
A:--------------------------------------------------------------------------------------|
E:--------------------------------------------------------------------------------------|

e:---------------------------------------------------------------17-19-20-22-20B----------|
B:----------------------17~~~~--15h17p15------------15--15B---17--------------------------|
G:-17--14~~---17--14~~-------------------17--14--17---------------------------------------|
D:--------------------------------------------------------------------------------14~~~~~-|
A:----------------------------------------------------------------------------------------|
E:----------------------------------------------------------------------------------------|

e:----------------------------------------------------------------------------------15-17B~|
B:------------------------------------------------------------------------------17---------|
G:------------------------------------------------------------------------17~~~------------|
D:-14-17-15--12h15p12-14~~~--14h15p14-12~~~---10-9-12~~~---14---17----19-------------------|
A:-----------------------------------------------------------------------------------------|
E:-----------------------------------------------------------------------------------------|