Home > Hip-Hop > Fabolous >
Can't Let You Go Guitar Tablature
Artist: Fabolous
Song: Can’t Let You Go
Album: Street Dreams
Tuning: Standard (EADGBE)
Tabbed By: Shawn Barton

This song is very easy to play. You just have to listen to it to 
get the feel of the song. Its all repetitive like most other rap 
or hip-hop songs.

e|------------------------------------------|
B|---3----3h4p2—(3)-3-3------3-5/7--5--3----|
G|----------------------------------------4-|
D|------------------------------------------|
A|------------------------------------------|
E|------------------------------------------|


e|-------------------------------------|
B|-------------------------------------|
G|---------4----2---2h3h4p2------------|
D|------2----2-------------------------|
A|---0---------------------------------|
E|-------------------------------------|

This repeats the whole song. There are a few background guitar 
parts. I will update this tab when I perfect them.

-eSEAy - NorthWest Rap......You Feeling It?


If you have any questions, e-mail me at [email protected] 
Thank you for viewing my tab. Please rate. Thanks
Previous guitar tablature in Fabolous :: Next guitar tablature in Fabolous